0
SECTION
2
HEADER
9
$INSUNITS
70
4
0
ENDSEC
0
SECTION
2
TABLES
0
TABLE
2
LTYPE
0
LTYPE
72
65
70
64
2
CONTINUOUS
3
______
73
0
40
0
0
ENDTAB
0
TABLE
2
LAYER
0
ENDTAB
0
ENDSEC
0
SECTION
2
ENTITIES
0
LINE
8
TOP_outsideCutPath
10
136.2116205
20
139.1568997
11
125.6058102
21
139.1568997
0
LINE
8
TOP_outsideCutPath
10
125.6058102
20
139.1568997
11
125.6058102
21
144.1568997
0
LINE
8
TOP_outsideCutPath
10
125.6058102
20
144.1568997
11
115.6058102
21
144.1568997
0
LINE
8
TOP_outsideCutPath
10
115.6058102
20
144.1568997
11
115.6058102
21
139.1568997
0
LINE
8
TOP_outsideCutPath
10
115.6058102
20
139.1568997
11
105.6058102
21
139.1568997
0
LINE
8
TOP_outsideCutPath
10
105.6058102
20
139.1568997
11
105.6058102
21
144.1568997
0
LINE
8
TOP_outsideCutPath
10
105.6058102
20
144.1568997
11
95.6058102
21
144.1568997
0
LINE
8
TOP_outsideCutPath
10
95.6058102
20
144.1568997
11
95.6058102
21
139.1568997
0
LINE
8
TOP_outsideCutPath
10
95.6058102
20
139.1568997
11
85.6058102
21
139.1568997
0
LINE
8
TOP_outsideCutPath
10
85.6058102
20
139.1568997
11
85.6058102
21
144.1568997
0
LINE
8
TOP_outsideCutPath
10
85.6058102
20
144.1568997
11
75.6058102
21
144.1568997
0
LINE
8
TOP_outsideCutPath
10
75.6058102
20
144.1568997
11
75.6058102
21
139.1568997
0
LINE
8
TOP_outsideCutPath
10
75.6058102
20
139.1568997
11
65.6058102
21
139.1568997
0
LINE
8
TOP_outsideCutPath
10
65.6058102
20
139.1568997
11
65.6058102
21
144.1568997
0
LINE
8
TOP_outsideCutPath
10
65.6058102
20
144.1568997
11
55.6058102
21
144.1568997
0
LINE
8
TOP_outsideCutPath
10
55.6058102
20
144.1568997
11
55.6058102
21
139.1568997
0
LINE
8
TOP_outsideCutPath
10
55.6058102
20
139.1568997
11
45
21
139.1568997
0
LINE
8
TOP_outsideCutPath
10
45
20
139.1568997
11
42.5016273
21
139.0788001
0
LINE
8
TOP_outsideCutPath
10
42.5016273
20
139.0788001
11
40.0130107
21
138.8448064
0
LINE
8
TOP_outsideCutPath
10
40.0130107
20
138.8448064
11
37.5438681
21
138.4558322
0
LINE
8
TOP_outsideCutPath
10
37.5438681
20
138.4558322
11
35.1038416
21
137.9133965
0
LINE
8
TOP_outsideCutPath
10
35.1038416
20
137.9133965
11
32.7024594
21
137.2196176
0
LINE
8
TOP_outsideCutPath
10
32.7024594
20
137.2196176
11
30.3490988
21
136.3772045
0
LINE
8
TOP_outsideCutPath
10
30.3490988
20
136.3772045
11
28.0529497
21
135.389447
0
LINE
8
TOP_outsideCutPath
10
28.0529497
20
135.389447
11
25.8229785
21
134.2602021
0
LINE
8
TOP_outsideCutPath
10
25.8229785
20
134.2602021
11
23.6678931
21
132.9938796
0
LINE
8
TOP_outsideCutPath
10
23.6678931
20
132.9938796
11
21.5961091
21
131.5954244
0
LINE
8
TOP_outsideCutPath
10
21.5961091
20
131.5954244
11
19.6157168
21
130.0702975
0
LINE
8
TOP_outsideCutPath
10
19.6157168
20
130.0702975
11
17.7344496
21
128.4244544
0
LINE
8
TOP_outsideCutPath
10
17.7344496
20
128.4244544
11
15.9596538
21
126.6643222
0
LINE
8
TOP_outsideCutPath
10
15.9596538
20
126.6643222
11
14.2982599
21
124.796774
0
LINE
8
TOP_outsideCutPath
10
14.2982599
20
124.796774
11
12.7567557
21
122.8291027
0
LINE
8
TOP_outsideCutPath
10
12.7567557
20
122.8291027
11
11.3411606
21
120.7689919
0
LINE
8
TOP_outsideCutPath
10
11.3411606
20
120.7689919
11
10.0570026
21
118.6244864
0
LINE
8
TOP_outsideCutPath
10
10.0570026
20
118.6244864
11
8.9092962
21
116.4039603
0
LINE
8
TOP_outsideCutPath
10
8.9092962
20
116.4039603
11
7.9025233
21
114.1160849
0
LINE
8
TOP_outsideCutPath
10
7.9025233
20
114.1160849
11
7.0406152
21
111.7697942
0
LINE
8
TOP_outsideCutPath
10
7.0406152
20
111.7697942
11
6.3269377
21
109.3742503
0
LINE
8
TOP_outsideCutPath
10
6.3269377
20
109.3742503
11
5.7642777
21
106.938808
0
LINE
8
TOP_outsideCutPath
10
5.7642777
20
106.938808
11
5.3548324
21
104.4729774
0
LINE
8
TOP_outsideCutPath
10
5.3548324
20
104.4729774
11
5.1002005
21
101.9863877
0
LINE
8
TOP_outsideCutPath
10
5.1002005
20
101.9863877
11
5.0013766
21
99.4887489
0
LINE
8
TOP_outsideCutPath
10
5.0013766
20
99.4887489
11
5
21
99.1568997
0
LINE
8
TOP_outsideCutPath
10
5
20
99.1568997
11
5
21
87.0784498
0
LINE
8
TOP_outsideCutPath
10
5
20
87.0784498
11
0
21
87.0784498
0
LINE
8
TOP_outsideCutPath
10
0
20
87.0784498
11
0
21
77.0784498
0
LINE
8
TOP_outsideCutPath
10
0
20
77.0784498
11
5
21
77.0784498
0
LINE
8
TOP_outsideCutPath
10
5
20
77.0784498
11
5
21
67.0784498
0
LINE
8
TOP_outsideCutPath
10
5
20
67.0784498
11
0
21
67.0784498
0
LINE
8
TOP_outsideCutPath
10
0
20
67.0784498
11
0
21
57.0784498
0
LINE
8
TOP_outsideCutPath
10
0
20
57.0784498
11
5
21
57.0784498
0
LINE
8
TOP_outsideCutPath
10
5
20
57.0784498
11
5
21
47.0784498
0
LINE
8
TOP_outsideCutPath
10
5
20
47.0784498
11
5
21
45
0
LINE
8
TOP_outsideCutPath
10
5
20
45
11
5.0780996
21
42.5016273
0
LINE
8
TOP_outsideCutPath
10
5.0780996
20
42.5016273
11
5.3120933
21
40.0130107
0
LINE
8
TOP_outsideCutPath
10
5.3120933
20
40.0130107
11
5.7010675
21
37.5438681
0
LINE
8
TOP_outsideCutPath
10
5.7010675
20
37.5438681
11
6.2435031
21
35.1038416
0
LINE
8
TOP_outsideCutPath
10
6.2435031
20
35.1038416
11
6.9372821
21
32.7024594
0
LINE
8
TOP_outsideCutPath
10
6.9372821
20
32.7024594
11
7.7796951
21
30.3490988
0
LINE
8
TOP_outsideCutPath
10
7.7796951
20
30.3490988
11
8.7674527
21
28.0529497
0
LINE
8
TOP_outsideCutPath
10
8.7674527
20
28.0529497
11
9.8966975
21
25.8229785
0
LINE
8
TOP_outsideCutPath
10
9.8966975
20
25.8229785
11
11.16302
21
23.6678931
0
LINE
8
TOP_outsideCutPath
10
11.16302
20
23.6678931
11
12.5614752
21
21.5961091
0
LINE
8
TOP_outsideCutPath
10
12.5614752
20
21.5961091
11
14.0866022
21
19.6157168
0
LINE
8
TOP_outsideCutPath
10
14.0866022
20
19.6157168
11
15.7324452
21
17.7344496
0
LINE
8
TOP_outsideCutPath
10
15.7324452
20
17.7344496
11
17.4925775
21
15.9596538
0
LINE
8
TOP_outsideCutPath
10
17.4925775
20
15.9596538
11
19.3601257
21
14.2982599
0
LINE
8
TOP_outsideCutPath
10
19.3601257
20
14.2982599
11
21.327797
21
12.7567557
0
LINE
8
TOP_outsideCutPath
10
21.327797
20
12.7567557
11
23.3879078
21
11.3411606
0
LINE
8
TOP_outsideCutPath
10
23.3879078
20
11.3411606
11
25.5324133
21
10.0570026
0
LINE
8
TOP_outsideCutPath
10
25.5324133
20
10.0570026
11
27.7529393
21
8.9092962
0
LINE
8
TOP_outsideCutPath
10
27.7529393
20
8.9092962
11
30.0408148
21
7.9025233
0
LINE
8
TOP_outsideCutPath
10
30.0408148
20
7.9025233
11
32.3871055
21
7.0406152
0
LINE
8
TOP_outsideCutPath
10
32.3871055
20
7.0406152
11
34.7826493
21
6.3269377
0
LINE
8
TOP_outsideCutPath
10
34.7826493
20
6.3269377
11
37.2180917
21
5.7642777
0
LINE
8
TOP_outsideCutPath
10
37.2180917
20
5.7642777
11
39.6839222
21
5.3548324
0
LINE
8
TOP_outsideCutPath
10
39.6839222
20
5.3548324
11
42.1705119
21
5.1002005
0
LINE
8
TOP_outsideCutPath
10
42.1705119
20
5.1002005
11
44.6681507
21
5.0013766
0
LINE
8
TOP_outsideCutPath
10
44.6681507
20
5.0013766
11
45
21
5
0
LINE
8
TOP_outsideCutPath
10
45
20
5
11
52.8029051
21
5
0
LINE
8
TOP_outsideCutPath
10
52.8029051
20
5
11
52.8029051
21
0
0
LINE
8
TOP_outsideCutPath
10
52.8029051
20
0
11
62.8029051
21
0
0
LINE
8
TOP_outsideCutPath
10
62.8029051
20
0
11
62.8029051
21
5
0
LINE
8
TOP_outsideCutPath
10
62.8029051
20
5
11
72.8029051
21
5
0
LINE
8
TOP_outsideCutPath
10
72.8029051
20
5
11
72.8029051
21
0
0
LINE
8
TOP_outsideCutPath
10
72.8029051
20
0
11
82.8029051
21
0
0
LINE
8
TOP_outsideCutPath
10
82.8029051
20
0
11
82.8029051
21
5
0
LINE
8
TOP_outsideCutPath
10
82.8029051
20
5
11
90.6058102
21
5
0
LINE
8
TOP_outsideCutPath
10
90.6058102
20
5
11
98.4087154
21
5
0
LINE
8
TOP_outsideCutPath
10
98.4087154
20
5
11
98.4087154
21
0
0
LINE
8
TOP_outsideCutPath
10
98.4087154
20
0
11
108.4087154
21
0
0
LINE
8
TOP_outsideCutPath
10
108.4087154
20
0
11
108.4087154
21
5
0
LINE
8
TOP_outsideCutPath
10
108.4087154
20
5
11
118.4087154
21
5
0
LINE
8
TOP_outsideCutPath
10
118.4087154
20
5
11
118.4087154
21
0
0
LINE
8
TOP_outsideCutPath
10
118.4087154
20
0
11
128.4087154
21
0
0
LINE
8
TOP_outsideCutPath
10
128.4087154
20
0
11
128.4087154
21
5
0
LINE
8
TOP_outsideCutPath
10
128.4087154
20
5
11
136.2116205
21
5
0
LINE
8
TOP_outsideCutPath
10
136.2116205
20
5
11
138.7099932
21
5.0780996
0
LINE
8
TOP_outsideCutPath
10
138.7099932
20
5.0780996
11
141.1986098
21
5.3120933
0
LINE
8
TOP_outsideCutPath
10
141.1986098
20
5.3120933
11
143.6677524
21
5.7010675
0
LINE
8
TOP_outsideCutPath
10
143.6677524
20
5.7010675
11
146.1077789
21
6.2435031
0
LINE
8
TOP_outsideCutPath
10
146.1077789
20
6.2435031
11
148.5091611
21
6.9372821
0
LINE
8
TOP_outsideCutPath
10
148.5091611
20
6.9372821
11
150.8625217
21
7.7796951
0
LINE
8
TOP_outsideCutPath
10
150.8625217
20
7.7796951
11
153.1586708
21
8.7674527
0
LINE
8
TOP_outsideCutPath
10
153.1586708
20
8.7674527
11
155.388642
21
9.8966975
0
LINE
8
TOP_outsideCutPath
10
155.388642
20
9.8966975
11
157.5437274
21
11.16302
0
LINE
8
TOP_outsideCutPath
10
157.5437274
20
11.16302
11
159.6155114
21
12.5614752
0
LINE
8
TOP_outsideCutPath
10
159.6155114
20
12.5614752
11
161.5959037
21
14.0866022
0
LINE
8
TOP_outsideCutPath
10
161.5959037
20
14.0866022
11
163.4771709
21
15.7324452
0
LINE
8
TOP_outsideCutPath
10
163.4771709
20
15.7324452
11
165.2519667
21
17.4925775
0
LINE
8
TOP_outsideCutPath
10
165.2519667
20
17.4925775
11
166.9133606
21
19.3601257
0
LINE
8
TOP_outsideCutPath
10
166.9133606
20
19.3601257
11
168.4548648
21
21.327797
0
LINE
8
TOP_outsideCutPath
10
168.4548648
20
21.327797
11
169.8704599
21
23.3879078
0
LINE
8
TOP_outsideCutPath
10
169.8704599
20
23.3879078
11
171.1546179
21
25.5324133
0
LINE
8
TOP_outsideCutPath
10
171.1546179
20
25.5324133
11
172.3023243
21
27.7529393
0
LINE
8
TOP_outsideCutPath
10
172.3023243
20
27.7529393
11
173.3090972
21
30.0408148
0
LINE
8
TOP_outsideCutPath
10
173.3090972
20
30.0408148
11
174.1710053
21
32.3871055
0
LINE
8
TOP_outsideCutPath
10
174.1710053
20
32.3871055
11
174.8846828
21
34.7826493
0
LINE
8
TOP_outsideCutPath
10
174.8846828
20
34.7826493
11
175.4473428
21
37.2180917
0
LINE
8
TOP_outsideCutPath
10
175.4473428
20
37.2180917
11
175.8567881
21
39.6839222
0
LINE
8
TOP_outsideCutPath
10
175.8567881
20
39.6839222
11
176.11142
21
42.1705119
0
LINE
8
TOP_outsideCutPath
10
176.11142
20
42.1705119
11
176.2102439
21
44.6681507
0
LINE
8
TOP_outsideCutPath
10
176.2102439
20
44.6681507
11
176.2116205
21
45
0
LINE
8
TOP_outsideCutPath
10
176.2116205
20
45
11
176.2116205
21
57.0784498
0
LINE
8
TOP_outsideCutPath
10
176.2116205
20
57.0784498
11
181.2116205
21
57.0784498
0
LINE
8
TOP_outsideCutPath
10
181.2116205
20
57.0784498
11
181.2116205
21
67.0784498
0
LINE
8
TOP_outsideCutPath
10
181.2116205
20
67.0784498
11
176.2116205
21
67.0784498
0
LINE
8
TOP_outsideCutPath
10
176.2116205
20
67.0784498
11
176.2116205
21
77.0784498
0
LINE
8
TOP_outsideCutPath
10
176.2116205
20
77.0784498
11
181.2116205
21
77.0784498
0
LINE
8
TOP_outsideCutPath
10
181.2116205
20
77.0784498
11
181.2116205
21
87.0784498
0
LINE
8
TOP_outsideCutPath
10
181.2116205
20
87.0784498
11
176.2116205
21
87.0784498
0
LINE
8
TOP_outsideCutPath
10
176.2116205
20
87.0784498
11
176.2116205
21
97.0784498
0
LINE
8
TOP_outsideCutPath
10
176.2116205
20
97.0784498
11
176.2116205
21
99.1568997
0
LINE
8
TOP_outsideCutPath
10
176.2116205
20
99.1568997
11
176.1335209
21
101.6552724
0
LINE
8
TOP_outsideCutPath
10
176.1335209
20
101.6552724
11
175.8995272
21
104.143889
0
LINE
8
TOP_outsideCutPath
10
175.8995272
20
104.143889
11
175.510553
21
106.6130315
0
LINE
8
TOP_outsideCutPath
10
175.510553
20
106.6130315
11
174.9681174
21
109.053058
0
LINE
8
TOP_outsideCutPath
10
174.9681174
20
109.053058
11
174.2743384
21
111.4544403
0
LINE
8
TOP_outsideCutPath
10
174.2743384
20
111.4544403
11
173.4319254
21
113.8078008
0
LINE
8
TOP_outsideCutPath
10
173.4319254
20
113.8078008
11
172.4441678
21
116.10395
0
LINE
8
TOP_outsideCutPath
10
172.4441678
20
116.10395
11
171.314923
21
118.3339212
0
LINE
8
TOP_outsideCutPath
10
171.314923
20
118.3339212
11
170.0486005
21
120.4890066
0
LINE
8
TOP_outsideCutPath
10
170.0486005
20
120.4890066
11
168.6501453
21
122.5607906
0
LINE
8
TOP_outsideCutPath
10
168.6501453
20
122.5607906
11
167.1250183
21
124.5411829
0
LINE
8
TOP_outsideCutPath
10
167.1250183
20
124.5411829
11
165.4791752
21
126.4224501
0
LINE
8
TOP_outsideCutPath
10
165.4791752
20
126.4224501
11
163.719043
21
128.1972459
0
LINE
8
TOP_outsideCutPath
10
163.719043
20
128.1972459
11
161.8514948
21
129.8586398
0
LINE
8
TOP_outsideCutPath
10
161.8514948
20
129.8586398
11
159.8838235
21
131.400144
0
LINE
8
TOP_outsideCutPath
10
159.8838235
20
131.400144
11
157.8237127
21
132.8157391
0
LINE
8
TOP_outsideCutPath
10
157.8237127
20
132.8157391
11
155.6792072
21
134.0998971
0
LINE
8
TOP_outsideCutPath
10
155.6792072
20
134.0998971
11
153.4586812
21
135.2476034
0
LINE
8
TOP_outsideCutPath
10
153.4586812
20
135.2476034
11
151.1708057
21
136.2543764
0
LINE
8
TOP_outsideCutPath
10
151.1708057
20
136.2543764
11
148.824515
21
137.1162844
0
LINE
8
TOP_outsideCutPath
10
148.824515
20
137.1162844
11
146.4289712
21
137.8299619
0
LINE
8
TOP_outsideCutPath
10
146.4289712
20
137.8299619
11
143.9935288
21
138.3926219
0
LINE
8
TOP_outsideCutPath
10
143.9935288
20
138.3926219
11
141.5276983
21
138.8020673
0
LINE
8
TOP_outsideCutPath
10
141.5276983
20
138.8020673
11
139.0411086
21
139.0566991
0
LINE
8
TOP_outsideCutPath
10
139.0411086
20
139.0566991
11
136.5434698
21
139.1555231
0
LINE
8
TOP_outsideCutPath
10
136.5434698
20
139.1555231
11
136.2116205
21
139.1568997
0
LINE
8
BOTTOM_outsideCutPath
10
320.423241
20
139.1568997
11
309.8174307
21
139.1568997
0
LINE
8
BOTTOM_outsideCutPath
10
309.8174307
20
139.1568997
11
309.8174307
21
144.1568997
0
LINE
8
BOTTOM_outsideCutPath
10
309.8174307
20
144.1568997
11
299.8174307
21
144.1568997
0
LINE
8
BOTTOM_outsideCutPath
10
299.8174307
20
144.1568997
11
299.8174307
21
139.1568997
0
LINE
8
BOTTOM_outsideCutPath
10
299.8174307
20
139.1568997
11
289.8174307
21
139.1568997
0
LINE
8
BOTTOM_outsideCutPath
10
289.8174307
20
139.1568997
11
289.8174307
21
144.1568997
0
LINE
8
BOTTOM_outsideCutPath
10
289.8174307
20
144.1568997
11
279.8174307
21
144.1568997
0
LINE
8
BOTTOM_outsideCutPath
10
279.8174307
20
144.1568997
11
279.8174307
21
139.1568997
0
LINE
8
BOTTOM_outsideCutPath
10
279.8174307
20
139.1568997
11
269.8174307
21
139.1568997
0
LINE
8
BOTTOM_outsideCutPath
10
269.8174307
20
139.1568997
11
269.8174307
21
144.1568997
0
LINE
8
BOTTOM_outsideCutPath
10
269.8174307
20
144.1568997
11
259.8174307
21
144.1568997
0
LINE
8
BOTTOM_outsideCutPath
10
259.8174307
20
144.1568997
11
259.8174307
21
139.1568997
0
LINE
8
BOTTOM_outsideCutPath
10
259.8174307
20
139.1568997
11
249.8174307
21
139.1568997
0
LINE
8
BOTTOM_outsideCutPath
10
249.8174307
20
139.1568997
11
249.8174307
21
144.1568997
0
LINE
8
BOTTOM_outsideCutPath
10
249.8174307
20
144.1568997
11
239.8174307
21
144.1568997
0
LINE
8
BOTTOM_outsideCutPath
10
239.8174307
20
144.1568997
11
239.8174307
21
139.1568997
0
LINE
8
BOTTOM_outsideCutPath
10
239.8174307
20
139.1568997
11
229.2116205
21
139.1568997
0
LINE
8
BOTTOM_outsideCutPath
10
229.2116205
20
139.1568997
11
226.7132478
21
139.0788001
0
LINE
8
BOTTOM_outsideCutPath
10
226.7132478
20
139.0788001
11
224.2246312
21
138.8448064
0
LINE
8
BOTTOM_outsideCutPath
10
224.2246312
20
138.8448064
11
221.7554886
21
138.4558322
0
LINE
8
BOTTOM_outsideCutPath
10
221.7554886
20
138.4558322
11
219.3154621
21
137.9133965
0
LINE
8
BOTTOM_outsideCutPath
10
219.3154621
20
137.9133965
11
216.9140799
21
137.2196176
0
LINE
8
BOTTOM_outsideCutPath
10
216.9140799
20
137.2196176
11
214.5607193
21
136.3772045
0
LINE
8
BOTTOM_outsideCutPath
10
214.5607193
20
136.3772045
11
212.2645702
21
135.389447
0
LINE
8
BOTTOM_outsideCutPath
10
212.2645702
20
135.389447
11
210.0345989
21
134.2602021
0
LINE
8
BOTTOM_outsideCutPath
10
210.0345989
20
134.2602021
11
207.8795136
21
132.9938796
0
LINE
8
BOTTOM_outsideCutPath
10
207.8795136
20
132.9938796
11
205.8077296
21
131.5954244
0
LINE
8
BOTTOM_outsideCutPath
10
205.8077296
20
131.5954244
11
203.8273373
21
130.0702975
0
LINE
8
BOTTOM_outsideCutPath
10
203.8273373
20
130.0702975
11
201.9460701
21
128.4244544
0
LINE
8
BOTTOM_outsideCutPath
10
201.9460701
20
128.4244544
11
200.1712743
21
126.6643222
0
LINE
8
BOTTOM_outsideCutPath
10
200.1712743
20
126.6643222
11
198.5098804
21
124.796774
0
LINE
8
BOTTOM_outsideCutPath
10
198.5098804
20
124.796774
11
196.9683762
21
122.8291027
0
LINE
8
BOTTOM_outsideCutPath
10
196.9683762
20
122.8291027
11
195.5527811
21
120.7689919
0
LINE
8
BOTTOM_outsideCutPath
10
195.5527811
20
120.7689919
11
194.2686231
21
118.6244864
0
LINE
8
BOTTOM_outsideCutPath
10
194.2686231
20
118.6244864
11
193.1209167
21
116.4039603
0
LINE
8
BOTTOM_outsideCutPath
10
193.1209167
20
116.4039603
11
192.1141438
21
114.1160849
0
LINE
8
BOTTOM_outsideCutPath
10
192.1141438
20
114.1160849
11
191.2522357
21
111.7697942
0
LINE
8
BOTTOM_outsideCutPath
10
191.2522357
20
111.7697942
11
190.5385582
21
109.3742503
0
LINE
8
BOTTOM_outsideCutPath
10
190.5385582
20
109.3742503
11
189.9758982
21
106.938808
0
LINE
8
BOTTOM_outsideCutPath
10
189.9758982
20
106.938808
11
189.5664529
21
104.4729774
0
LINE
8
BOTTOM_outsideCutPath
10
189.5664529
20
104.4729774
11
189.311821
21
101.9863877
0
LINE
8
BOTTOM_outsideCutPath
10
189.311821
20
101.9863877
11
189.2129971
21
99.4887489
0
LINE
8
BOTTOM_outsideCutPath
10
189.2129971
20
99.4887489
11
189.2116205
21
99.1568997
0
LINE
8
BOTTOM_outsideCutPath
10
189.2116205
20
99.1568997
11
189.2116205
21
87.0784498
0
LINE
8
BOTTOM_outsideCutPath
10
189.2116205
20
87.0784498
11
184.2116205
21
87.0784498
0
LINE
8
BOTTOM_outsideCutPath
10
184.2116205
20
87.0784498
11
184.2116205
21
77.0784498
0
LINE
8
BOTTOM_outsideCutPath
10
184.2116205
20
77.0784498
11
189.2116205
21
77.0784498
0
LINE
8
BOTTOM_outsideCutPath
10
189.2116205
20
77.0784498
11
189.2116205
21
67.0784498
0
LINE
8
BOTTOM_outsideCutPath
10
189.2116205
20
67.0784498
11
184.2116205
21
67.0784498
0
LINE
8
BOTTOM_outsideCutPath
10
184.2116205
20
67.0784498
11
184.2116205
21
57.0784498
0
LINE
8
BOTTOM_outsideCutPath
10
184.2116205
20
57.0784498
11
189.2116205
21
57.0784498
0
LINE
8
BOTTOM_outsideCutPath
10
189.2116205
20
57.0784498
11
189.2116205
21
47.0784498
0
LINE
8
BOTTOM_outsideCutPath
10
189.2116205
20
47.0784498
11
189.2116205
21
45
0
LINE
8
BOTTOM_outsideCutPath
10
189.2116205
20
45
11
189.2897201
21
42.5016273
0
LINE
8
BOTTOM_outsideCutPath
10
189.2897201
20
42.5016273
11
189.5237138
21
40.0130107
0
LINE
8
BOTTOM_outsideCutPath
10
189.5237138
20
40.0130107
11
189.912688
21
37.5438681
0
LINE
8
BOTTOM_outsideCutPath
10
189.912688
20
37.5438681
11
190.4551236
21
35.1038416
0
LINE
8
BOTTOM_outsideCutPath
10
190.4551236
20
35.1038416
11
191.1489026
21
32.7024594
0
LINE
8
BOTTOM_outsideCutPath
10
191.1489026
20
32.7024594
11
191.9913156
21
30.3490988
0
LINE
8
BOTTOM_outsideCutPath
10
191.9913156
20
30.3490988
11
192.9790732
21
28.0529497
0
LINE
8
BOTTOM_outsideCutPath
10
192.9790732
20
28.0529497
11
194.108318
21
25.8229785
0
LINE
8
BOTTOM_outsideCutPath
10
194.108318
20
25.8229785
11
195.3746405
21
23.6678931
0
LINE
8
BOTTOM_outsideCutPath
10
195.3746405
20
23.6678931
11
196.7730957
21
21.5961091
0
LINE
8
BOTTOM_outsideCutPath
10
196.7730957
20
21.5961091
11
198.2982226
21
19.6157168
0
LINE
8
BOTTOM_outsideCutPath
10
198.2982226
20
19.6157168
11
199.9440657
21
17.7344496
0
LINE
8
BOTTOM_outsideCutPath
10
199.9440657
20
17.7344496
11
201.704198
21
15.9596538
0
LINE
8
BOTTOM_outsideCutPath
10
201.704198
20
15.9596538
11
203.5717462
21
14.2982599
0
LINE
8
BOTTOM_outsideCutPath
10
203.5717462
20
14.2982599
11
205.5394175
21
12.7567557
0
LINE
8
BOTTOM_outsideCutPath
10
205.5394175
20
12.7567557
11
207.5995283
21
11.3411606
0
LINE
8
BOTTOM_outsideCutPath
10
207.5995283
20
11.3411606
11
209.7440338
21
10.0570026
0
LINE
8
BOTTOM_outsideCutPath
10
209.7440338
20
10.0570026
11
211.9645598
21
8.9092962
0
LINE
8
BOTTOM_outsideCutPath
10
211.9645598
20
8.9092962
11
214.2524353
21
7.9025233
0
LINE
8
BOTTOM_outsideCutPath
10
214.2524353
20
7.9025233
11
216.598726
21
7.0406152
0
LINE
8
BOTTOM_outsideCutPath
10
216.598726
20
7.0406152
11
218.9942698
21
6.3269377
0
LINE
8
BOTTOM_outsideCutPath
10
218.9942698
20
6.3269377
11
221.4297122
21
5.7642777
0
LINE
8
BOTTOM_outsideCutPath
10
221.4297122
20
5.7642777
11
223.8955427
21
5.3548324
0
LINE
8
BOTTOM_outsideCutPath
10
223.8955427
20
5.3548324
11
226.3821324
21
5.1002005
0
LINE
8
BOTTOM_outsideCutPath
10
226.3821324
20
5.1002005
11
228.8797712
21
5.0013766
0
LINE
8
BOTTOM_outsideCutPath
10
228.8797712
20
5.0013766
11
229.2116205
21
5
0
LINE
8
BOTTOM_outsideCutPath
10
229.2116205
20
5
11
237.0145256
21
5
0
LINE
8
BOTTOM_outsideCutPath
10
237.0145256
20
5
11
237.0145256
21
0
0
LINE
8
BOTTOM_outsideCutPath
10
237.0145256
20
0
11
247.0145256
21
0
0
LINE
8
BOTTOM_outsideCutPath
10
247.0145256
20
0
11
247.0145256
21
5
0
LINE
8
BOTTOM_outsideCutPath
10
247.0145256
20
5
11
257.0145256
21
5
0
LINE
8
BOTTOM_outsideCutPath
10
257.0145256
20
5
11
257.0145256
21
0
0
LINE
8
BOTTOM_outsideCutPath
10
257.0145256
20
0
11
267.0145256
21
0
0
LINE
8
BOTTOM_outsideCutPath
10
267.0145256
20
0
11
267.0145256
21
5
0
LINE
8
BOTTOM_outsideCutPath
10
267.0145256
20
5
11
274.8174307
21
5
0
LINE
8
BOTTOM_outsideCutPath
10
274.8174307
20
5
11
282.6203359
21
5
0
LINE
8
BOTTOM_outsideCutPath
10
282.6203359
20
5
11
282.6203359
21
0
0
LINE
8
BOTTOM_outsideCutPath
10
282.6203359
20
0
11
292.6203359
21
0
0
LINE
8
BOTTOM_outsideCutPath
10
292.6203359
20
0
11
292.6203359
21
5
0
LINE
8
BOTTOM_outsideCutPath
10
292.6203359
20
5
11
302.6203359
21
5
0
LINE
8
BOTTOM_outsideCutPath
10
302.6203359
20
5
11
302.6203359
21
0
0
LINE
8
BOTTOM_outsideCutPath
10
302.6203359
20
0
11
312.6203359
21
0
0
LINE
8
BOTTOM_outsideCutPath
10
312.6203359
20
0
11
312.6203359
21
5
0
LINE
8
BOTTOM_outsideCutPath
10
312.6203359
20
5
11
320.423241
21
5
0
LINE
8
BOTTOM_outsideCutPath
10
320.423241
20
5
11
322.9216137
21
5.0780996
0
LINE
8
BOTTOM_outsideCutPath
10
322.9216137
20
5.0780996
11
325.4102303
21
5.3120933
0
LINE
8
BOTTOM_outsideCutPath
10
325.4102303
20
5.3120933
11
327.8793729
21
5.7010675
0
LINE
8
BOTTOM_outsideCutPath
10
327.8793729
20
5.7010675
11
330.3193994
21
6.2435031
0
LINE
8
BOTTOM_outsideCutPath
10
330.3193994
20
6.2435031
11
332.7207816
21
6.9372821
0
LINE
8
BOTTOM_outsideCutPath
10
332.7207816
20
6.9372821
11
335.0741421
21
7.7796951
0
LINE
8
BOTTOM_outsideCutPath
10
335.0741421
20
7.7796951
11
337.3702913
21
8.7674527
0
LINE
8
BOTTOM_outsideCutPath
10
337.3702913
20
8.7674527
11
339.6002625
21
9.8966975
0
LINE
8
BOTTOM_outsideCutPath
10
339.6002625
20
9.8966975
11
341.7553479
21
11.16302
0
LINE
8
BOTTOM_outsideCutPath
10
341.7553479
20
11.16302
11
343.8271319
21
12.5614752
0
LINE
8
BOTTOM_outsideCutPath
10
343.8271319
20
12.5614752
11
345.8075242
21
14.0866022
0
LINE
8
BOTTOM_outsideCutPath
10
345.8075242
20
14.0866022
11
347.6887914
21
15.7324452
0
LINE
8
BOTTOM_outsideCutPath
10
347.6887914
20
15.7324452
11
349.4635872
21
17.4925775
0
LINE
8
BOTTOM_outsideCutPath
10
349.4635872
20
17.4925775
11
351.1249811
21
19.3601257
0
LINE
8
BOTTOM_outsideCutPath
10
351.1249811
20
19.3601257
11
352.6664853
21
21.327797
0
LINE
8
BOTTOM_outsideCutPath
10
352.6664853
20
21.327797
11
354.0820804
21
23.3879078
0
LINE
8
BOTTOM_outsideCutPath
10
354.0820804
20
23.3879078
11
355.3662384
21
25.5324133
0
LINE
8
BOTTOM_outsideCutPath
10
355.3662384
20
25.5324133
11
356.5139447
21
27.7529393
0
LINE
8
BOTTOM_outsideCutPath
10
356.5139447
20
27.7529393
11
357.5207177
21
30.0408148
0
LINE
8
BOTTOM_outsideCutPath
10
357.5207177
20
30.0408148
11
358.3826258
21
32.3871055
0
LINE
8
BOTTOM_outsideCutPath
10
358.3826258
20
32.3871055
11
359.0963033
21
34.7826493
0
LINE
8
BOTTOM_outsideCutPath
10
359.0963033
20
34.7826493
11
359.6589633
21
37.2180917
0
LINE
8
BOTTOM_outsideCutPath
10
359.6589633
20
37.2180917
11
360.0684086
21
39.6839222
0
LINE
8
BOTTOM_outsideCutPath
10
360.0684086
20
39.6839222
11
360.3230404
21
42.1705119
0
LINE
8
BOTTOM_outsideCutPath
10
360.3230404
20
42.1705119
11
360.4218644
21
44.6681507
0
LINE
8
BOTTOM_outsideCutPath
10
360.4218644
20
44.6681507
11
360.423241
21
45
0
LINE
8
BOTTOM_outsideCutPath
10
360.423241
20
45
11
360.423241
21
57.0784498
0
LINE
8
BOTTOM_outsideCutPath
10
360.423241
20
57.0784498
11
365.423241
21
57.0784498
0
LINE
8
BOTTOM_outsideCutPath
10
365.423241
20
57.0784498
11
365.423241
21
67.0784498
0
LINE
8
BOTTOM_outsideCutPath
10
365.423241
20
67.0784498
11
360.423241
21
67.0784498
0
LINE
8
BOTTOM_outsideCutPath
10
360.423241
20
67.0784498
11
360.423241
21
77.0784498
0
LINE
8
BOTTOM_outsideCutPath
10
360.423241
20
77.0784498
11
365.423241
21
77.0784498
0
LINE
8
BOTTOM_outsideCutPath
10
365.423241
20
77.0784498
11
365.423241
21
87.0784498
0
LINE
8
BOTTOM_outsideCutPath
10
365.423241
20
87.0784498
11
360.423241
21
87.0784498
0
LINE
8
BOTTOM_outsideCutPath
10
360.423241
20
87.0784498
11
360.423241
21
97.0784498
0
LINE
8
BOTTOM_outsideCutPath
10
360.423241
20
97.0784498
11
360.423241
21
99.1568997
0
LINE
8
BOTTOM_outsideCutPath
10
360.423241
20
99.1568997
11
360.3451414
21
101.6552724
0
LINE
8
BOTTOM_outsideCutPath
10
360.3451414
20
101.6552724
11
360.1111477
21
104.143889
0
LINE
8
BOTTOM_outsideCutPath
10
360.1111477
20
104.143889
11
359.7221735
21
106.6130315
0
LINE
8
BOTTOM_outsideCutPath
10
359.7221735
20
106.6130315
11
359.1797379
21
109.053058
0
LINE
8
BOTTOM_outsideCutPath
10
359.1797379
20
109.053058
11
358.4859589
21
111.4544403
0
LINE
8
BOTTOM_outsideCutPath
10
358.4859589
20
111.4544403
11
357.6435459
21
113.8078008
0
LINE
8
BOTTOM_outsideCutPath
10
357.6435459
20
113.8078008
11
356.6557883
21
116.10395
0
LINE
8
BOTTOM_outsideCutPath
10
356.6557883
20
116.10395
11
355.5265435
21
118.3339212
0
LINE
8
BOTTOM_outsideCutPath
10
355.5265435
20
118.3339212
11
354.260221
21
120.4890066
0
LINE
8
BOTTOM_outsideCutPath
10
354.260221
20
120.4890066
11
352.8617658
21
122.5607906
0
LINE
8
BOTTOM_outsideCutPath
10
352.8617658
20
122.5607906
11
351.3366388
21
124.5411829
0
LINE
8
BOTTOM_outsideCutPath
10
351.3366388
20
124.5411829
11
349.6907957
21
126.4224501
0
LINE
8
BOTTOM_outsideCutPath
10
349.6907957
20
126.4224501
11
347.9306635
21
128.1972459
0
LINE
8
BOTTOM_outsideCutPath
10
347.9306635
20
128.1972459
11
346.0631153
21
129.8586398
0
LINE
8
BOTTOM_outsideCutPath
10
346.0631153
20
129.8586398
11
344.095444
21
131.400144
0
LINE
8
BOTTOM_outsideCutPath
10
344.095444
20
131.400144
11
342.0353332
21
132.8157391
0
LINE
8
BOTTOM_outsideCutPath
10
342.0353332
20
132.8157391
11
339.8908277
21
134.0998971
0
LINE
8
BOTTOM_outsideCutPath
10
339.8908277
20
134.0998971
11
337.6703017
21
135.2476034
0
LINE
8
BOTTOM_outsideCutPath
10
337.6703017
20
135.2476034
11
335.3824262
21
136.2543764
0
LINE
8
BOTTOM_outsideCutPath
10
335.3824262
20
136.2543764
11
333.0361355
21
137.1162844
0
LINE
8
BOTTOM_outsideCutPath
10
333.0361355
20
137.1162844
11
330.6405917
21
137.8299619
0
LINE
8
BOTTOM_outsideCutPath
10
330.6405917
20
137.8299619
11
328.2051493
21
138.3926219
0
LINE
8
BOTTOM_outsideCutPath
10
328.2051493
20
138.3926219
11
325.7393188
21
138.8020673
0
LINE
8
BOTTOM_outsideCutPath
10
325.7393188
20
138.8020673
11
323.2527291
21
139.0566991
0
LINE
8
BOTTOM_outsideCutPath
10
323.2527291
20
139.0566991
11
320.7550903
21
139.1555231
0
LINE
8
BOTTOM_outsideCutPath
10
320.7550903
20
139.1555231
11
320.423241
21
139.1568997
0
LINE
8
SIDE_insideCutPath
10
45.6058102
20
147.1568997
11
45.6058102
21
163.4068997
0
LINE
8
SIDE_insideCutPath
10
45.6058102
20
171.5318997
11
45.6058102
21
187.7818997
0
LINE
8
SIDE_insideCutPath
10
45.6058102
20
195.9068997
11
45.6058102
21
212.1568997
0
LINE
8
SIDE_insideCutPath
10
50.8632514
20
147.1568997
11
50.8632514
21
151.2193997
0
LINE
8
SIDE_insideCutPath
10
50.8632514
20
159.3443997
11
50.8632514
21
175.5943997
0
LINE
8
SIDE_insideCutPath
10
50.8632514
20
183.7193997
11
50.8632514
21
199.9693997
0
LINE
8
SIDE_insideCutPath
10
50.8632514
20
208.0943997
11
50.8632514
21
212.1568997
0
LINE
8
SIDE_insideCutPath
10
56.1206926
20
147.1568997
11
56.1206926
21
163.4068997
0
LINE
8
SIDE_insideCutPath
10
56.1206926
20
171.5318997
11
56.1206926
21
187.7818997
0
LINE
8
SIDE_insideCutPath
10
56.1206926
20
195.9068997
11
56.1206926
21
212.1568997
0
LINE
8
SIDE_insideCutPath
10
61.3781338
20
147.1568997
11
61.3781338
21
151.2193997
0
LINE
8
SIDE_insideCutPath
10
61.3781338
20
159.3443997
11
61.3781338
21
175.5943997
0
LINE
8
SIDE_insideCutPath
10
61.3781338
20
183.7193997
11
61.3781338
21
199.9693997
0
LINE
8
SIDE_insideCutPath
10
61.3781338
20
208.0943997
11
61.3781338
21
212.1568997
0
LINE
8
SIDE_insideCutPath
10
66.635575
20
147.1568997
11
66.635575
21
163.4068997
0
LINE
8
SIDE_insideCutPath
10
66.635575
20
171.5318997
11
66.635575
21
187.7818997
0
LINE
8
SIDE_insideCutPath
10
66.635575
20
195.9068997
11
66.635575
21
212.1568997
0
LINE
8
SIDE_insideCutPath
10
71.8930162
20
147.1568997
11
71.8930162
21
151.2193997
0
LINE
8
SIDE_insideCutPath
10
71.8930162
20
159.3443997
11
71.8930162
21
175.5943997
0
LINE
8
SIDE_insideCutPath
10
71.8930162
20
183.7193997
11
71.8930162
21
199.9693997
0
LINE
8
SIDE_insideCutPath
10
71.8930162
20
208.0943997
11
71.8930162
21
212.1568997
0
LINE
8
SIDE_insideCutPath
10
77.1504574
20
147.1568997
11
77.1504574
21
163.4068997
0
LINE
8
SIDE_insideCutPath
10
77.1504574
20
171.5318997
11
77.1504574
21
187.7818997
0
LINE
8
SIDE_insideCutPath
10
77.1504574
20
195.9068997
11
77.1504574
21
212.1568997
0
LINE
8
SIDE_insideCutPath
10
82.4078986
20
147.1568997
11
82.4078986
21
151.2193997
0
LINE
8
SIDE_insideCutPath
10
82.4078986
20
159.3443997
11
82.4078986
21
175.5943997
0
LINE
8
SIDE_insideCutPath
10
82.4078986
20
183.7193997
11
82.4078986
21
199.9693997
0
LINE
8
SIDE_insideCutPath
10
82.4078986
20
208.0943997
11
82.4078986
21
212.1568997
0
LINE
8
SIDE_insideCutPath
10
87.6653398
20
147.1568997
11
87.6653398
21
163.4068997
0
LINE
8
SIDE_insideCutPath
10
87.6653398
20
171.5318997
11
87.6653398
21
187.7818997
0
LINE
8
SIDE_insideCutPath
10
87.6653398
20
195.9068997
11
87.6653398
21
212.1568997
0
LINE
8
SIDE_insideCutPath
10
92.9227809
20
147.1568997
11
92.9227809
21
151.2193997
0
LINE
8
SIDE_insideCutPath
10
92.9227809
20
159.3443997
11
92.9227809
21
175.5943997
0
LINE
8
SIDE_insideCutPath
10
92.9227809
20
183.7193997
11
92.9227809
21
199.9693997
0
LINE
8
SIDE_insideCutPath
10
92.9227809
20
208.0943997
11
92.9227809
21
212.1568997
0
LINE
8
SIDE_insideCutPath
10
98.1802221
20
147.1568997
11
98.1802221
21
163.4068997
0
LINE
8
SIDE_insideCutPath
10
98.1802221
20
171.5318997
11
98.1802221
21
187.7818997
0
LINE
8
SIDE_insideCutPath
10
98.1802221
20
195.9068997
11
98.1802221
21
212.1568997
0
LINE
8
SIDE_insideCutPath
10
103.4376633
20
147.1568997
11
103.4376633
21
151.2193997
0
LINE
8
SIDE_insideCutPath
10
103.4376633
20
159.3443997
11
103.4376633
21
175.5943997
0
LINE
8
SIDE_insideCutPath
10
103.4376633
20
183.7193997
11
103.4376633
21
199.9693997
0
LINE
8
SIDE_insideCutPath
10
103.4376633
20
208.0943997
11
103.4376633
21
212.1568997
0
LINE
8
SIDE_insideCutPath
10
162.594563
20
147.1568997
11
162.594563
21
163.4068997
0
LINE
8
SIDE_insideCutPath
10
162.594563
20
171.5318997
11
162.594563
21
187.7818997
0
LINE
8
SIDE_insideCutPath
10
162.594563
20
195.9068997
11
162.594563
21
212.1568997
0
LINE
8
SIDE_insideCutPath
10
167.8520042
20
147.1568997
11
167.8520042
21
151.2193997
0
LINE
8
SIDE_insideCutPath
10
167.8520042
20
159.3443997
11
167.8520042
21
175.5943997
0
LINE
8
SIDE_insideCutPath
10
167.8520042
20
183.7193997
11
167.8520042
21
199.9693997
0
LINE
8
SIDE_insideCutPath
10
167.8520042
20
208.0943997
11
167.8520042
21
212.1568997
0
LINE
8
SIDE_insideCutPath
10
173.1094454
20
147.1568997
11
173.1094454
21
163.4068997
0
LINE
8
SIDE_insideCutPath
10
173.1094454
20
171.5318997
11
173.1094454
21
187.7818997
0
LINE
8
SIDE_insideCutPath
10
173.1094454
20
195.9068997
11
173.1094454
21
212.1568997
0
LINE
8
SIDE_insideCutPath
10
178.3668866
20
147.1568997
11
178.3668866
21
151.2193997
0
LINE
8
SIDE_insideCutPath
10
178.3668866
20
159.3443997
11
178.3668866
21
175.5943997
0
LINE
8
SIDE_insideCutPath
10
178.3668866
20
183.7193997
11
178.3668866
21
199.9693997
0
LINE
8
SIDE_insideCutPath
10
178.3668866
20
208.0943997
11
178.3668866
21
212.1568997
0
LINE
8
SIDE_insideCutPath
10
183.6243277
20
147.1568997
11
183.6243277
21
163.4068997
0
LINE
8
SIDE_insideCutPath
10
183.6243277
20
171.5318997
11
183.6243277
21
187.7818997
0
LINE
8
SIDE_insideCutPath
10
183.6243277
20
195.9068997
11
183.6243277
21
212.1568997
0
LINE
8
SIDE_insideCutPath
10
188.8817689
20
147.1568997
11
188.8817689
21
151.2193997
0
LINE
8
SIDE_insideCutPath
10
188.8817689
20
159.3443997
11
188.8817689
21
175.5943997
0
LINE
8
SIDE_insideCutPath
10
188.8817689
20
183.7193997
11
188.8817689
21
199.9693997
0
LINE
8
SIDE_insideCutPath
10
188.8817689
20
208.0943997
11
188.8817689
21
212.1568997
0
LINE
8
SIDE_insideCutPath
10
194.1392101
20
147.1568997
11
194.1392101
21
163.4068997
0
LINE
8
SIDE_insideCutPath
10
194.1392101
20
171.5318997
11
194.1392101
21
187.7818997
0
LINE
8
SIDE_insideCutPath
10
194.1392101
20
195.9068997
11
194.1392101
21
212.1568997
0
LINE
8
SIDE_insideCutPath
10
199.3966513
20
147.1568997
11
199.3966513
21
151.2193997
0
LINE
8
SIDE_insideCutPath
10
199.3966513
20
159.3443997
11
199.3966513
21
175.5943997
0
LINE
8
SIDE_insideCutPath
10
199.3966513
20
183.7193997
11
199.3966513
21
199.9693997
0
LINE
8
SIDE_insideCutPath
10
199.3966513
20
208.0943997
11
199.3966513
21
212.1568997
0
LINE
8
SIDE_insideCutPath
10
204.6540925
20
147.1568997
11
204.6540925
21
163.4068997
0
LINE
8
SIDE_insideCutPath
10
204.6540925
20
171.5318997
11
204.6540925
21
187.7818997
0
LINE
8
SIDE_insideCutPath
10
204.6540925
20
195.9068997
11
204.6540925
21
212.1568997
0
LINE
8
SIDE_insideCutPath
10
209.9115337
20
147.1568997
11
209.9115337
21
151.2193997
0
LINE
8
SIDE_insideCutPath
10
209.9115337
20
159.3443997
11
209.9115337
21
175.5943997
0
LINE
8
SIDE_insideCutPath
10
209.9115337
20
183.7193997
11
209.9115337
21
199.9693997
0
LINE
8
SIDE_insideCutPath
10
209.9115337
20
208.0943997
11
209.9115337
21
212.1568997
0
LINE
8
SIDE_insideCutPath
10
215.1689749
20
147.1568997
11
215.1689749
21
163.4068997
0
LINE
8
SIDE_insideCutPath
10
215.1689749
20
171.5318997
11
215.1689749
21
187.7818997
0
LINE
8
SIDE_insideCutPath
10
215.1689749
20
195.9068997
11
215.1689749
21
212.1568997
0
LINE
8
SIDE_insideCutPath
10
220.4264161
20
147.1568997
11
220.4264161
21
151.2193997
0
LINE
8
SIDE_insideCutPath
10
220.4264161
20
159.3443997
11
220.4264161
21
175.5943997
0
LINE
8
SIDE_insideCutPath
10
220.4264161
20
183.7193997
11
220.4264161
21
199.9693997
0
LINE
8
SIDE_insideCutPath
10
220.4264161
20
208.0943997
11
220.4264161
21
212.1568997
0
LINE
8
SIDE_insideCutPath
10
316.6380366
20
147.1568997
11
316.6380366
21
163.4068997
0
LINE
8
SIDE_insideCutPath
10
316.6380366
20
171.5318997
11
316.6380366
21
187.7818997
0
LINE
8
SIDE_insideCutPath
10
316.6380366
20
195.9068997
11
316.6380366
21
212.1568997
0
LINE
8
SIDE_insideCutPath
10
321.8954777
20
147.1568997
11
321.8954777
21
151.2193997
0
LINE
8
SIDE_insideCutPath
10
321.8954777
20
159.3443997
11
321.8954777
21
175.5943997
0
LINE
8
SIDE_insideCutPath
10
321.8954777
20
183.7193997
11
321.8954777
21
199.9693997
0
LINE
8
SIDE_insideCutPath
10
321.8954777
20
208.0943997
11
321.8954777
21
212.1568997
0
LINE
8
SIDE_insideCutPath
10
327.1529189
20
147.1568997
11
327.1529189
21
163.4068997
0
LINE
8
SIDE_insideCutPath
10
327.1529189
20
171.5318997
11
327.1529189
21
187.7818997
0
LINE
8
SIDE_insideCutPath
10
327.1529189
20
195.9068997
11
327.1529189
21
212.1568997
0
LINE
8
SIDE_insideCutPath
10
332.4103601
20
147.1568997
11
332.4103601
21
151.2193997
0
LINE
8
SIDE_insideCutPath
10
332.4103601
20
159.3443997
11
332.4103601
21
175.5943997
0
LINE
8
SIDE_insideCutPath
10
332.4103601
20
183.7193997
11
332.4103601
21
199.9693997
0
LINE
8
SIDE_insideCutPath
10
332.4103601
20
208.0943997
11
332.4103601
21
212.1568997
0
LINE
8
SIDE_insideCutPath
10
337.6678013
20
147.1568997
11
337.6678013
21
163.4068997
0
LINE
8
SIDE_insideCutPath
10
337.6678013
20
171.5318997
11
337.6678013
21
187.7818997
0
LINE
8
SIDE_insideCutPath
10
337.6678013
20
195.9068997
11
337.6678013
21
212.1568997
0
LINE
8
SIDE_insideCutPath
10
342.9252425
20
147.1568997
11
342.9252425
21
151.2193997
0
LINE
8
SIDE_insideCutPath
10
342.9252425
20
159.3443997
11
342.9252425
21
175.5943997
0
LINE
8
SIDE_insideCutPath
10
342.9252425
20
183.7193997
11
342.9252425
21
199.9693997
0
LINE
8
SIDE_insideCutPath
10
342.9252425
20
208.0943997
11
342.9252425
21
212.1568997
0
LINE
8
SIDE_insideCutPath
10
348.1826837
20
147.1568997
11
348.1826837
21
163.4068997
0
LINE
8
SIDE_insideCutPath
10
348.1826837
20
171.5318997
11
348.1826837
21
187.7818997
0
LINE
8
SIDE_insideCutPath
10
348.1826837
20
195.9068997
11
348.1826837
21
212.1568997
0
LINE
8
SIDE_insideCutPath
10
353.4401249
20
147.1568997
11
353.4401249
21
151.2193997
0
LINE
8
SIDE_insideCutPath
10
353.4401249
20
159.3443997
11
353.4401249
21
175.5943997
0
LINE
8
SIDE_insideCutPath
10
353.4401249
20
183.7193997
11
353.4401249
21
199.9693997
0
LINE
8
SIDE_insideCutPath
10
353.4401249
20
208.0943997
11
353.4401249
21
212.1568997
0
LINE
8
SIDE_insideCutPath
10
358.6975661
20
147.1568997
11
358.6975661
21
163.4068997
0
LINE
8
SIDE_insideCutPath
10
358.6975661
20
171.5318997
11
358.6975661
21
187.7818997
0
LINE
8
SIDE_insideCutPath
10
358.6975661
20
195.9068997
11
358.6975661
21
212.1568997
0
LINE
8
SIDE_insideCutPath
10
363.9550072
20
147.1568997
11
363.9550072
21
151.2193997
0
LINE
8
SIDE_insideCutPath
10
363.9550072
20
159.3443997
11
363.9550072
21
175.5943997
0
LINE
8
SIDE_insideCutPath
10
363.9550072
20
183.7193997
11
363.9550072
21
199.9693997
0
LINE
8
SIDE_insideCutPath
10
363.9550072
20
208.0943997
11
363.9550072
21
212.1568997
0
LINE
8
SIDE_insideCutPath
10
369.2124484
20
147.1568997
11
369.2124484
21
163.4068997
0
LINE
8
SIDE_insideCutPath
10
369.2124484
20
171.5318997
11
369.2124484
21
187.7818997
0
LINE
8
SIDE_insideCutPath
10
369.2124484
20
195.9068997
11
369.2124484
21
212.1568997
0
LINE
8
SIDE_insideCutPath
10
374.4698896
20
147.1568997
11
374.4698896
21
151.2193997
0
LINE
8
SIDE_insideCutPath
10
374.4698896
20
159.3443997
11
374.4698896
21
175.5943997
0
LINE
8
SIDE_insideCutPath
10
374.4698896
20
183.7193997
11
374.4698896
21
199.9693997
0
LINE
8
SIDE_insideCutPath
10
374.4698896
20
208.0943997
11
374.4698896
21
212.1568997
0
LINE
8
SIDE_insideCutPath
10
433.6267893
20
147.1568997
11
433.6267893
21
163.4068997
0
LINE
8
SIDE_insideCutPath
10
433.6267893
20
171.5318997
11
433.6267893
21
187.7818997
0
LINE
8
SIDE_insideCutPath
10
433.6267893
20
195.9068997
11
433.6267893
21
212.1568997
0
LINE
8
SIDE_insideCutPath
10
438.8842305
20
147.1568997
11
438.8842305
21
151.2193997
0
LINE
8
SIDE_insideCutPath
10
438.8842305
20
159.3443997
11
438.8842305
21
175.5943997
0
LINE
8
SIDE_insideCutPath
10
438.8842305
20
183.7193997
11
438.8842305
21
199.9693997
0
LINE
8
SIDE_insideCutPath
10
438.8842305
20
208.0943997
11
438.8842305
21
212.1568997
0
LINE
8
SIDE_insideCutPath
10
444.1416717
20
147.1568997
11
444.1416717
21
163.4068997
0
LINE
8
SIDE_insideCutPath
10
444.1416717
20
171.5318997
11
444.1416717
21
187.7818997
0
LINE
8
SIDE_insideCutPath
10
444.1416717
20
195.9068997
11
444.1416717
21
212.1568997
0
LINE
8
SIDE_insideCutPath
10
449.3991129
20
147.1568997
11
449.3991129
21
151.2193997
0
LINE
8
SIDE_insideCutPath
10
449.3991129
20
159.3443997
11
449.3991129
21
175.5943997
0
LINE
8
SIDE_insideCutPath
10
449.3991129
20
183.7193997
11
449.3991129
21
199.9693997
0
LINE
8
SIDE_insideCutPath
10
449.3991129
20
208.0943997
11
449.3991129
21
212.1568997
0
LINE
8
SIDE_insideCutPath
10
454.656554
20
147.1568997
11
454.656554
21
163.4068997
0
LINE
8
SIDE_insideCutPath
10
454.656554
20
171.5318997
11
454.656554
21
187.7818997
0
LINE
8
SIDE_insideCutPath
10
454.656554
20
195.9068997
11
454.656554
21
212.1568997
0
LINE
8
SIDE_insideCutPath
10
459.9139952
20
147.1568997
11
459.9139952
21
151.2193997
0
LINE
8
SIDE_insideCutPath
10
459.9139952
20
159.3443997
11
459.9139952
21
175.5943997
0
LINE
8
SIDE_insideCutPath
10
459.9139952
20
183.7193997
11
459.9139952
21
199.9693997
0
LINE
8
SIDE_insideCutPath
10
459.9139952
20
208.0943997
11
459.9139952
21
212.1568997
0
LINE
8
SIDE_insideCutPath
10
465.1714364
20
147.1568997
11
465.1714364
21
163.4068997
0
LINE
8
SIDE_insideCutPath
10
465.1714364
20
171.5318997
11
465.1714364
21
187.7818997
0
LINE
8
SIDE_insideCutPath
10
465.1714364
20
195.9068997
11
465.1714364
21
212.1568997
0
LINE
8
SIDE_insideCutPath
10
470.4288776
20
147.1568997
11
470.4288776
21
151.2193997
0
LINE
8
SIDE_insideCutPath
10
470.4288776
20
159.3443997
11
470.4288776
21
175.5943997
0
LINE
8
SIDE_insideCutPath
10
470.4288776
20
183.7193997
11
470.4288776
21
199.9693997
0
LINE
8
SIDE_insideCutPath
10
470.4288776
20
208.0943997
11
470.4288776
21
212.1568997
0
LINE
8
SIDE_insideCutPath
10
475.6863188
20
147.1568997
11
475.6863188
21
163.4068997
0
LINE
8
SIDE_insideCutPath
10
475.6863188
20
171.5318997
11
475.6863188
21
187.7818997
0
LINE
8
SIDE_insideCutPath
10
475.6863188
20
195.9068997
11
475.6863188
21
212.1568997
0
LINE
8
SIDE_insideCutPath
10
480.94376
20
147.1568997
11
480.94376
21
151.2193997
0
LINE
8
SIDE_insideCutPath
10
480.94376
20
159.3443997
11
480.94376
21
175.5943997
0
LINE
8
SIDE_insideCutPath
10
480.94376
20
183.7193997
11
480.94376
21
199.9693997
0
LINE
8
SIDE_insideCutPath
10
480.94376
20
208.0943997
11
480.94376
21
212.1568997
0
LINE
8
SIDE_insideCutPath
10
486.2012012
20
147.1568997
11
486.2012012
21
163.4068997
0
LINE
8
SIDE_insideCutPath
10
486.2012012
20
171.5318997
11
486.2012012
21
187.7818997
0
LINE
8
SIDE_insideCutPath
10
486.2012012
20
195.9068997
11
486.2012012
21
212.1568997
0
LINE
8
SIDE_insideCutPath
10
491.4586424
20
147.1568997
11
491.4586424
21
151.2193997
0
LINE
8
SIDE_insideCutPath
10
491.4586424
20
159.3443997
11
491.4586424
21
175.5943997
0
LINE
8
SIDE_insideCutPath
10
491.4586424
20
183.7193997
11
491.4586424
21
199.9693997
0
LINE
8
SIDE_insideCutPath
10
491.4586424
20
208.0943997
11
491.4586424
21
212.1568997
0
LINE
8
SIDE_outsideCutPath
10
0
20
212.1568997
11
0
21
147.1568997
0
LINE
8
SIDE_outsideCutPath
10
0
20
147.1568997
11
7.8029051
21
147.1568997
0
LINE
8
SIDE_outsideCutPath
10
7.8029051
20
147.1568997
11
7.8029051
21
152.1568997
0
LINE
8
SIDE_outsideCutPath
10
7.8029051
20
152.1568997
11
17.8029051
21
152.1568997
0
LINE
8
SIDE_outsideCutPath
10
17.8029051
20
152.1568997
11
17.8029051
21
147.1568997
0
LINE
8
SIDE_outsideCutPath
10
17.8029051
20
147.1568997
11
27.8029051
21
147.1568997
0
LINE
8
SIDE_outsideCutPath
10
27.8029051
20
147.1568997
11
27.8029051
21
152.1568997
0
LINE
8
SIDE_outsideCutPath
10
27.8029051
20
152.1568997
11
37.8029051
21
152.1568997
0
LINE
8
SIDE_outsideCutPath
10
37.8029051
20
152.1568997
11
37.8029051
21
147.1568997
0
LINE
8
SIDE_outsideCutPath
10
37.8029051
20
147.1568997
11
45.6058102
21
147.1568997
0
LINE
8
SIDE_outsideCutPath
10
45.6058102
20
147.1568997
11
108.4376633
21
147.1568997
0
LINE
8
SIDE_outsideCutPath
10
108.4376633
20
147.1568997
11
120.5161132
21
147.1568997
0
LINE
8
SIDE_outsideCutPath
10
120.5161132
20
147.1568997
11
120.5161132
21
152.1568997
0
LINE
8
SIDE_outsideCutPath
10
120.5161132
20
152.1568997
11
130.5161132
21
152.1568997
0
LINE
8
SIDE_outsideCutPath
10
130.5161132
20
152.1568997
11
130.5161132
21
147.1568997
0
LINE
8
SIDE_outsideCutPath
10
130.5161132
20
147.1568997
11
140.5161132
21
147.1568997
0
LINE
8
SIDE_outsideCutPath
10
140.5161132
20
147.1568997
11
140.5161132
21
152.1568997
0
LINE
8
SIDE_outsideCutPath
10
140.5161132
20
152.1568997
11
150.5161132
21
152.1568997
0
LINE
8
SIDE_outsideCutPath
10
150.5161132
20
152.1568997
11
150.5161132
21
147.1568997
0
LINE
8
SIDE_outsideCutPath
10
150.5161132
20
147.1568997
11
160.5161132
21
147.1568997
0
LINE
8
SIDE_outsideCutPath
10
160.5161132
20
147.1568997
11
162.594563
21
147.1568997
0
LINE
8
SIDE_outsideCutPath
10
162.594563
20
147.1568997
11
225.4264161
21
147.1568997
0
LINE
8
SIDE_outsideCutPath
10
225.4264161
20
147.1568997
11
236.0322263
21
147.1568997
0
LINE
8
SIDE_outsideCutPath
10
236.0322263
20
147.1568997
11
236.0322263
21
152.1568997
0
LINE
8
SIDE_outsideCutPath
10
236.0322263
20
152.1568997
11
246.0322263
21
152.1568997
0
LINE
8
SIDE_outsideCutPath
10
246.0322263
20
152.1568997
11
246.0322263
21
147.1568997
0
LINE
8
SIDE_outsideCutPath
10
246.0322263
20
147.1568997
11
256.0322263
21
147.1568997
0
LINE
8
SIDE_outsideCutPath
10
256.0322263
20
147.1568997
11
256.0322263
21
152.1568997
0
LINE
8
SIDE_outsideCutPath
10
256.0322263
20
152.1568997
11
266.0322263
21
152.1568997
0
LINE
8
SIDE_outsideCutPath
10
266.0322263
20
152.1568997
11
266.0322263
21
147.1568997
0
LINE
8
SIDE_outsideCutPath
10
266.0322263
20
147.1568997
11
276.0322263
21
147.1568997
0
LINE
8
SIDE_outsideCutPath
10
276.0322263
20
147.1568997
11
276.0322263
21
152.1568997
0
LINE
8
SIDE_outsideCutPath
10
276.0322263
20
152.1568997
11
286.0322263
21
152.1568997
0
LINE
8
SIDE_outsideCutPath
10
286.0322263
20
152.1568997
11
286.0322263
21
147.1568997
0
LINE
8
SIDE_outsideCutPath
10
286.0322263
20
147.1568997
11
296.0322263
21
147.1568997
0
LINE
8
SIDE_outsideCutPath
10
296.0322263
20
147.1568997
11
296.0322263
21
152.1568997
0
LINE
8
SIDE_outsideCutPath
10
296.0322263
20
152.1568997
11
306.0322263
21
152.1568997
0
LINE
8
SIDE_outsideCutPath
10
306.0322263
20
152.1568997
11
306.0322263
21
147.1568997
0
LINE
8
SIDE_outsideCutPath
10
306.0322263
20
147.1568997
11
316.6380366
21
147.1568997
0
LINE
8
SIDE_outsideCutPath
10
316.6380366
20
147.1568997
11
379.4698896
21
147.1568997
0
LINE
8
SIDE_outsideCutPath
10
379.4698896
20
147.1568997
11
391.5483395
21
147.1568997
0
LINE
8
SIDE_outsideCutPath
10
391.5483395
20
147.1568997
11
391.5483395
21
152.1568997
0
LINE
8
SIDE_outsideCutPath
10
391.5483395
20
152.1568997
11
401.5483395
21
152.1568997
0
LINE
8
SIDE_outsideCutPath
10
401.5483395
20
152.1568997
11
401.5483395
21
147.1568997
0
LINE
8
SIDE_outsideCutPath
10
401.5483395
20
147.1568997
11
411.5483395
21
147.1568997
0
LINE
8
SIDE_outsideCutPath
10
411.5483395
20
147.1568997
11
411.5483395
21
152.1568997
0
LINE
8
SIDE_outsideCutPath
10
411.5483395
20
152.1568997
11
421.5483395
21
152.1568997
0
LINE
8
SIDE_outsideCutPath
10
421.5483395
20
152.1568997
11
421.5483395
21
147.1568997
0
LINE
8
SIDE_outsideCutPath
10
421.5483395
20
147.1568997
11
431.5483395
21
147.1568997
0
LINE
8
SIDE_outsideCutPath
10
431.5483395
20
147.1568997
11
433.6267893
21
147.1568997
0
LINE
8
SIDE_outsideCutPath
10
433.6267893
20
147.1568997
11
496.4586424
21
147.1568997
0
LINE
8
SIDE_outsideCutPath
10
496.4586424
20
147.1568997
11
504.2615475
21
147.1568997
0
LINE
8
SIDE_outsideCutPath
10
504.2615475
20
147.1568997
11
504.2615475
21
152.1568997
0
LINE
8
SIDE_outsideCutPath
10
504.2615475
20
152.1568997
11
514.2615475
21
152.1568997
0
LINE
8
SIDE_outsideCutPath
10
514.2615475
20
152.1568997
11
514.2615475
21
147.1568997
0
LINE
8
SIDE_outsideCutPath
10
514.2615475
20
147.1568997
11
524.2615475
21
147.1568997
0
LINE
8
SIDE_outsideCutPath
10
524.2615475
20
147.1568997
11
524.2615475
21
152.1568997
0
LINE
8
SIDE_outsideCutPath
10
524.2615475
20
152.1568997
11
534.2615475
21
152.1568997
0
LINE
8
SIDE_outsideCutPath
10
534.2615475
20
152.1568997
11
534.2615475
21
147.1568997
0
LINE
8
SIDE_outsideCutPath
10
534.2615475
20
147.1568997
11
542.0644526
21
147.1568997
0
LINE
8
SIDE_outsideCutPath
10
542.0644526
20
147.1568997
11
542.0644526
21
212.1568997
0
LINE
8
SIDE_outsideCutPath
10
542.0644526
20
212.1568997
11
534.2615475
21
212.1568997
0
LINE
8
SIDE_outsideCutPath
10
534.2615475
20
212.1568997
11
534.2615475
21
207.1568997
0
LINE
8
SIDE_outsideCutPath
10
534.2615475
20
207.1568997
11
524.2615475
21
207.1568997
0
LINE
8
SIDE_outsideCutPath
10
524.2615475
20
207.1568997
11
524.2615475
21
212.1568997
0
LINE
8
SIDE_outsideCutPath
10
524.2615475
20
212.1568997
11
514.2615475
21
212.1568997
0
LINE
8
SIDE_outsideCutPath
10
514.2615475
20
212.1568997
11
514.2615475
21
207.1568997
0
LINE
8
SIDE_outsideCutPath
10
514.2615475
20
207.1568997
11
504.2615475
21
207.1568997
0
LINE
8
SIDE_outsideCutPath
10
504.2615475
20
207.1568997
11
504.2615475
21
212.1568997
0
LINE
8
SIDE_outsideCutPath
10
504.2615475
20
212.1568997
11
496.4586424
21
212.1568997
0
LINE
8
SIDE_outsideCutPath
10
496.4586424
20
212.1568997
11
433.6267893
21
212.1568997
0
LINE
8
SIDE_outsideCutPath
10
433.6267893
20
212.1568997
11
421.5483395
21
212.1568997
0
LINE
8
SIDE_outsideCutPath
10
421.5483395
20
212.1568997
11
421.5483395
21
207.1568997
0
LINE
8
SIDE_outsideCutPath
10
421.5483395
20
207.1568997
11
411.5483395
21
207.1568997
0
LINE
8
SIDE_outsideCutPath
10
411.5483395
20
207.1568997
11
411.5483395
21
212.1568997
0
LINE
8
SIDE_outsideCutPath
10
411.5483395
20
212.1568997
11
401.5483395
21
212.1568997
0
LINE
8
SIDE_outsideCutPath
10
401.5483395
20
212.1568997
11
401.5483395
21
207.1568997
0
LINE
8
SIDE_outsideCutPath
10
401.5483395
20
207.1568997
11
391.5483395
21
207.1568997
0
LINE
8
SIDE_outsideCutPath
10
391.5483395
20
207.1568997
11
391.5483395
21
212.1568997
0
LINE
8
SIDE_outsideCutPath
10
391.5483395
20
212.1568997
11
381.5483395
21
212.1568997
0
LINE
8
SIDE_outsideCutPath
10
381.5483395
20
212.1568997
11
379.4698896
21
212.1568997
0
LINE
8
SIDE_outsideCutPath
10
379.4698896
20
212.1568997
11
316.6380366
21
212.1568997
0
LINE
8
SIDE_outsideCutPath
10
316.6380366
20
212.1568997
11
306.0322263
21
212.1568997
0
LINE
8
SIDE_outsideCutPath
10
306.0322263
20
212.1568997
11
306.0322263
21
207.1568997
0
LINE
8
SIDE_outsideCutPath
10
306.0322263
20
207.1568997
11
296.0322263
21
207.1568997
0
LINE
8
SIDE_outsideCutPath
10
296.0322263
20
207.1568997
11
296.0322263
21
212.1568997
0
LINE
8
SIDE_outsideCutPath
10
296.0322263
20
212.1568997
11
286.0322263
21
212.1568997
0
LINE
8
SIDE_outsideCutPath
10
286.0322263
20
212.1568997
11
286.0322263
21
207.1568997
0
LINE
8
SIDE_outsideCutPath
10
286.0322263
20
207.1568997
11
276.0322263
21
207.1568997
0
LINE
8
SIDE_outsideCutPath
10
276.0322263
20
207.1568997
11
276.0322263
21
212.1568997
0
LINE
8
SIDE_outsideCutPath
10
276.0322263
20
212.1568997
11
266.0322263
21
212.1568997
0
LINE
8
SIDE_outsideCutPath
10
266.0322263
20
212.1568997
11
266.0322263
21
207.1568997
0
LINE
8
SIDE_outsideCutPath
10
266.0322263
20
207.1568997
11
256.0322263
21
207.1568997
0
LINE
8
SIDE_outsideCutPath
10
256.0322263
20
207.1568997
11
256.0322263
21
212.1568997
0
LINE
8
SIDE_outsideCutPath
10
256.0322263
20
212.1568997
11
246.0322263
21
212.1568997
0
LINE
8
SIDE_outsideCutPath
10
246.0322263
20
212.1568997
11
246.0322263
21
207.1568997
0
LINE
8
SIDE_outsideCutPath
10
246.0322263
20
207.1568997
11
236.0322263
21
207.1568997
0
LINE
8
SIDE_outsideCutPath
10
236.0322263
20
207.1568997
11
236.0322263
21
212.1568997
0
LINE
8
SIDE_outsideCutPath
10
236.0322263
20
212.1568997
11
225.4264161
21
212.1568997
0
LINE
8
SIDE_outsideCutPath
10
225.4264161
20
212.1568997
11
162.594563
21
212.1568997
0
LINE
8
SIDE_outsideCutPath
10
162.594563
20
212.1568997
11
150.5161132
21
212.1568997
0
LINE
8
SIDE_outsideCutPath
10
150.5161132
20
212.1568997
11
150.5161132
21
207.1568997
0
LINE
8
SIDE_outsideCutPath
10
150.5161132
20
207.1568997
11
140.5161132
21
207.1568997
0
LINE
8
SIDE_outsideCutPath
10
140.5161132
20
207.1568997
11
140.5161132
21
212.1568997
0
LINE
8
SIDE_outsideCutPath
10
140.5161132
20
212.1568997
11
130.5161132
21
212.1568997
0
LINE
8
SIDE_outsideCutPath
10
130.5161132
20
212.1568997
11
130.5161132
21
207.1568997
0
LINE
8
SIDE_outsideCutPath
10
130.5161132
20
207.1568997
11
120.5161132
21
207.1568997
0
LINE
8
SIDE_outsideCutPath
10
120.5161132
20
207.1568997
11
120.5161132
21
212.1568997
0
LINE
8
SIDE_outsideCutPath
10
120.5161132
20
212.1568997
11
110.5161132
21
212.1568997
0
LINE
8
SIDE_outsideCutPath
10
110.5161132
20
212.1568997
11
108.4376633
21
212.1568997
0
LINE
8
SIDE_outsideCutPath
10
108.4376633
20
212.1568997
11
45.6058102
21
212.1568997
0
LINE
8
SIDE_outsideCutPath
10
45.6058102
20
212.1568997
11
37.8029051
21
212.1568997
0
LINE
8
SIDE_outsideCutPath
10
37.8029051
20
212.1568997
11
37.8029051
21
207.1568997
0
LINE
8
SIDE_outsideCutPath
10
37.8029051
20
207.1568997
11
27.8029051
21
207.1568997
0
LINE
8
SIDE_outsideCutPath
10
27.8029051
20
207.1568997
11
27.8029051
21
212.1568997
0
LINE
8
SIDE_outsideCutPath
10
27.8029051
20
212.1568997
11
17.8029051
21
212.1568997
0
LINE
8
SIDE_outsideCutPath
10
17.8029051
20
212.1568997
11
17.8029051
21
207.1568997
0
LINE
8
SIDE_outsideCutPath
10
17.8029051
20
207.1568997
11
7.8029051
21
207.1568997
0
LINE
8
SIDE_outsideCutPath
10
7.8029051
20
207.1568997
11
7.8029051
21
212.1568997
0
LINE
8
SIDE_outsideCutPath
10
7.8029051
20
212.1568997
11
0
21
212.1568997
0
ENDSEC
0
EOF